Go Back   Foo Fighters Postboard > Foo Fighters Discussion > Foo Side Projects
Register FAQ Members List Calendar Search Today's Posts Mark Forums Read

Reply
 
Thread Tools Display Modes
  #1  
Old August 9th 2018, 04:23 PM
SgtPepper SgtPepper is offline
Visiting is pretty...
 
Join Date: Aug 2018
Posts: 1
Default Play by Dave Grohl - guitar tabs

So the sheet music is available for play for the guitar 1 and 2. Can anyone figure out a way to convert it into guitar tab? Would love to play this piece but I canít read music anymore lol
Reply With Quote
  #2  
Old August 19th 2018, 06:41 PM
mkmerkle mkmerkle is offline
Visiting is pretty...
 
Join Date: Aug 2018
Posts: 6
Default Re: Play by Dave Grohl - guitar tabs

Tuning: Standard (E chord diagramEE A chord diagramAA D chord diagramDD G chord diagramGG B chord diagramBB E chord diagramEE)

Key: G chord diagramGG

Difficulty: Advanced

All timings are according to the official video: https://play.roswellfilms.com/.

00:00-00:45:

(Guitar 3)
e|-------| (This is the buzzing at the start)
B|-------|
G|-------|
D|-2~~~--|
A|-2~~~--|
E|-2~~~--|

00:45-1:10:

(Guitar 1)
e|----------------------------------|----------------------|
B|----------------------------------|----------------------|
G|----------------------------------|----------------------|
D|--4-4-4-4-4--4-4-4-4-4--4-4-4-4-4-|-4-4-4-4-4------------|
A|--4-4-4-4-4--4-4-4-4-4--4-4-4-4-4-|-4-4-4-4-4------------|
E|--0-2-2-2-2--0-2-2-2-2--0-2-2-2-2-|-0-2-2-2-2------------| x4

(Guitar 2)
e|----------------------------------|----------------------|
B|----------------------------------|----------------------|
G|----------------------------------|----------------------|
D|--7-9-9-9-9--7-9-9-9-9--7-9-9-9-9-|-7-9-9-9-9------------|
A|--7-9-9-9-9--7-9-9-9-9--7-9-9-9-9-|-7-9-9-9-9------------|
E|--5-7-7-7-7--5-7-7-7-7--5-7-7-7-7-|-5-7-7-7-7------------| x4

1:10-1:23:

(Guitar 1)
e|----------------------------------|----------------------|
B|----------------------------------|----------------------|
G|----------------------------------|----------------------|
D|--4-4-4-4-4--4-4-4-4-4--4-4-4-4-4-|-4-4-4-4-4------------|
A|--4-4-4-4-4--4-4-4-4-4--4-4-4-4-4-|-4-4-4-4-4------------|
E|--0-2-2-2-2--0-2-2-2-2--0-2-2-2-2-|-0-2-2-2-2------------| x4

(Guitar 2)

e|--2-2-2-2-2--2-2-2-2-2--2-2-2-2-2-|-2--2--2--2--2--------|
B|----------------------------------|----------------------|
G|--4-4-4-4-4--4-4-4-4-4--4-4-4-4-4-|b4-b4-b4-b4-b4--------|
D|--4-4-4-4-4--4-4-4-4-4--4-4-4-4-4-|b4-b4-b4-b4-b4--------|
A|----------------------------------|----------------------|
E|----------------------------------|----------------------| x4

1:23-1:26:

(Guitar 1 & 2)
e|----------------------|
B|----------------------|
G|--7---------7---------|
D|--7-7-5-7---7-7-5-7-5-|
A|--5-7-5-7---5-7-5-7-5-|
E|----5-3-5-----5-3-5-3-|

(Guitar 3)
e|----------------------|
B|----------------------|
G|----------------------|
D|--7---------7---------|
A|----7-5-7-----7-5-7-5-|
E|----------------------|

1:26-1:30:

(Guitar 1)
e|----------------------------------|----------------------|
B|----------------------------------|----------------------|
G|----------------------------------|----------------------|
D|--4-4-4-4-4--4-4-4-4-4--4-4-4-4-4-|-4-4-4-4-4------------|
A|--4-4-4-4-4--4-4-4-4-4--4-4-4-4-4-|-4-4-4-4-4------------|
E|--0-2-2-2-2--0-2-2-2-2--0-2-2-2-2-|-0-2-2-2-2------------|

(Guitar 2)
e|----------------------------------|----------------------|
B|----------------------------------|----------------------|
G|----------------------------------|----------------------|
D|--7-9-9-9-9--7-9-9-9-9--7-9-9-9-9-|-7-9-9-9-9------------|
A|--7-9-9-9-9--7-9-9-9-9--7-9-9-9-9-|-7-9-9-9-9------------|
E|--5-7-7-7-7--5-7-7-7-7--5-7-7-7-7-|-5-7-7-7-7------------|

(Guitar 3)
e|----------------------------------|----------------------|
B|----------------------------------|----------------------|
G|----------------------------------|----------------------|
D|----------------------------------|----------------------|
A|--5-7-7-7-7--5-7-7-7-7--5-7-7-7-7-|-5-7-7-7-7------------|
E|----------------------------------|----------------------|

1:30-1:32:

(Guitar 1 & 2)
e|----------------------|
B|----------------------|
G|--7---------7---------|
D|--7-7-5-7---7-7-5-7-5-|
A|--5-7-5-7---5-7-5-7-5-|
E|----5-3-5-----5-3-5-3-|

(Guitar 3)
e|----------------------|
B|----------------------|
G|----------------------|
D|--7---------7---------|
A|----7-5-7-----7-5-7-5-|
E|----------------------|

1:32-1:37:

(Guitar 1)
e|----------------------------------|----------------------|
B|----------------------------------|----------------------|
G|----------------------------------|----------------------|
D|--4-4-4-4-4--4-4-4-4-4--4-4-4-4-4-|-4-4-4-4-4------------|
A|--4-4-4-4-4--4-4-4-4-4--4-4-4-4-4-|-4-4-4-4-4------------|
E|--0-2-2-2-2--0-2-2-2-2--0-2-2-2-2-|-0-2-2-2-2------------|

(Guitar 2)
e|----------------------------------|----------------------|
B|----------------------------------|----------------------|
G|----------------------------------|----------------------|
D|--7-9-9-9-9--7-9-9-9-9--7-9-9-9-9-|-7-9-9-9-9------------|
A|--7-9-9-9-9--7-9-9-9-9--7-9-9-9-9-|-7-9-9-9-9------------|
E|--5-7-7-7-7--5-7-7-7-7--5-7-7-7-7-|-5-7-7-7-7------------|

e|----------------------------------|----------------------|
B|----------------------------------|----------------------|
G|----------------------------------|----------------------|
D|----------------------------------|----------------------|
A|--5-7-7-7-7--5-7-7-7-7--5-7-7-7-7-|-5-7-7-7-7------------|
E|----------------------------------|----------------------|

1:37-1:39:

(Guitar 1 & 2)
e|----------------------|
B|----------------------|
G|--7---------7---------|
D|--7-7-5-7---7-7-5-7-5-|
A|--5-7-5-7---5-7-5-7-5-|
E|----5-3-5-----5-3-5-3-|

(Guitar 3)
e|----------------------|
B|----------------------|
G|----------------------|
D|--7---------7---------|
A|----7-5-7-----7-5-7-5-|
E|----------------------|

1:39-1:43:

(Guitar 1)
e|----------------------------------|----------------------|
B|----------------------------------|----------------------|
G|----------------------------------|----------------------|
D|--4-4-4-4-4--4-4-4-4-4--4-4-4-4-4-|-4-4-4-4-4------------|
A|--4-4-4-4-4--4-4-4-4-4--4-4-4-4-4-|-4-4-4-4-4------------|
E|--0-2-2-2-2--0-2-2-2-2--0-2-2-2-2-|-0-2-2-2-2------------|

(Guitar 2)
e|----------------------------------|----------------------|
B|----------------------------------|----------------------|
G|----------------------------------|----------------------|
D|--7-9-9-9-9--7-9-9-9-9--7-9-9-9-9-|-7-9-9-9-9------------|
A|--7-9-9-9-9--7-9-9-9-9--7-9-9-9-9-|-7-9-9-9-9------------|
E|--5-7-7-7-7--5-7-7-7-7--5-7-7-7-7-|-5-7-7-7-7------------|

(Guitar 3)
e|----------------------------------|----------------------|
B|--7--------7----------7---------7-|-------7--------------|
G|-b9--------b9---------b9--------b9|------b9--------------|
D|-b9--------b9---------b9--------b9|------b9--------------|
A|----------------------------------|----------------------|
E|----------------------------------|----------------------|

1:43-1:45:

(Guitar 1 & 2)
e|----------------------|
B|----------------------|
G|--7---------7---------|
D|--7-7-5-7---7-7-5-7-5-|
A|--5-7-5-7---5-7-5-7-5-|
E|----5-3-5-----5-3-5-3-|

(Guitar 3)
e|----------------------|
B|----------------------|
G|----------------------|
D|--7---------7---------|
A|----7-5-7-----7-5-7-5-|
E|----------------------|

1:43-2:00:

(Guitar 1)
e|----------------------------------|----------------------|
B|----------------------------------|----------------------|
G|----------------------------------|----------------------|
D|--4-4-4-4-4--4-4-4-4-4--4-4-4-4-4-|-4-4-4-4-4------------|
A|--4-4-4-4-4--4-4-4-4-4--4-4-4-4-4-|-4-4-4-4-4------------|
E|--0-2-2-2-2--0-2-2-2-2--0-2-2-2-2-|-0-2-2-2-2------------|

(Guitar 2)
e|----------------------------------|----------------------|
B|----------------------------------|----------------------|
G|----------------------------------|----------------------|
D|--7-9-9-9-9--7-9-9-9-9--7-9-9-9-9-|-7-9-9-9-9------------|
A|--7-9-9-9-9--7-9-9-9-9--7-9-9-9-9-|-7-9-9-9-9------------|
E|--5-7-7-7-7--5-7-7-7-7--5-7-7-7-7-|-5-7-7-7-7------------|

(Guitar 3)
e|----------------------------------|----------------------|
B|--7--------7----------7---------7-|-------7--------------|
G|-b9--------b9---------b9--------b9|------b9--------------|
D|-b9--------b9---------b9--------b9|------b9--------------|
A|----------------------------------|----------------------|
E|----------------------------------|----------------------|

2:00-3:22:

(Guitar 1)
e|-------------|-----0---------------|-----0---------------|-----0--------------------|------0-----|
B|-------------|-0-------------------|-0-------------------|-0------------------------|-0----------|
G|---4---4-----|------------5---5----|------------2---2----|-------------9----9-------|------------|
D|-----6-------|---6---6------7------|---7---7------4------|---4---4-------11---------|---11---11--|
A|-5-------5-5-|----------6-------6-6|----------3-------3-3|----------10--------10-10-|------------|
E|-------------|---------------------|---------------------|--------------------------|------------| x4

3:22-3:36:

(Guitar 1, 2 & 3)
e|---------| |-------------|---------------|
B|---------| |-------------|---------------|
G|-7-7-7---| |-------------|------7-7-7----|
D|-7-7-7-9-| |-9-7-9-7-9-7-|-9-7--7-7-7-9--|
A|-5-5-5-9-| |-9-7-9-7-9-7-|-9-7--5-5-5-9--|
E|-------7-| |-7-5-7-5-7-5-|-7-5--------7--| x4

3:36-3:52:

(Guitar 1 & 2)
e|-------------|--------------|
B|-------------|--------------|
G|-------------|------7-7-7---|
D|-9-7-9-7-9-7-|-9-7--7-7-7---|
A|-9-7-9-7-9-7-|-9-7--5-5-5---|
E|-7-5-7-5-7-5-|-7-5----------| x4

(Guitar 3)
e|-------------|--------------|
B|-------------|--------------|
G|-------------|--------------|
D|-------------|--------------|
A|-------------|-----b2-b2-b2-|
E|-7-5-7-5-7-5-|-7-5----------| x4
Reply With Quote
  #3  
Old August 19th 2018, 06:42 PM
mkmerkle mkmerkle is offline
Visiting is pretty...
 
Join Date: Aug 2018
Posts: 6
Default Re: Play by Dave Grohl - guitar tabs

3:52-4:18:

(Guitar 1 & 3)
B chord diagramBB Em7 chord diagramEm7Em7/B chord diagramBB B chord diagramBB F#m7 chord diagramF#m7F#m7
e|-7--7--7--7-|-7--7--7--7-|-0--0--0--0-|-0--0--0--0-|-7--7--7--7-|-7--7--7--7-|-2--2--2--2-|-2--2--2--2--|
B|-7--7--7--7-|-7--7--7--7-|-1--1--1--1-|-1--1--1--1-|-7--7--7--7-|-7--7--7--7-|-2--2--2--2-|-2--2--2--2--|
G|-8--8--8--8-|-8--8--8--8-|-0--0--0--0-|-0--0--0--0-|-8--8--8--8-|-8--8--8--8-|-2--2--2--2-|-2--2--2--2--|
D|-9--9--9--9-|-9--9--9--9-|-2--2--2--2-|-2--2--2--2-|-9--9--9--9-|-9--9--9--9-|-2--2--2--2-|-2--2--2--2--|
A|-9--9--9--9-|-9--9--9--9-|-2--2--2--2-|-2--2--2--2-|-9--9--9--9-|-9--9--9--9-|-4--4--4--4-|-4--4--4--4--|
E|-7--7--7--7-|-7--7--7--7-|-0--0--0--0-|-0--0--0--0-|-7--7--7--7-|-7--7--7--7-|-2--2--2--2-|-2--2--2--2--| x2

(Guitar 2)
e|-2--2--2--2-|-2--2--2--2-|-5--5--5--5-|-5--5--5--5-|-4--4--4--4-|-4--4--4--4-|-0--0--0--0-|-7--7--7--7--|
B|------------|------------|------------|------------|------------|------------|------------|-------------|
G|------------|------------|------------|------------|------------|------------|------------|-------------|
D|-4--4--4--4-|-4--4--4--4-|-7--7--7--7-|-7--7--7--7-|-6--6--6--6-|-6--6--6--6-|-2--2--2--2-|-9--9--9--9--|
A|-4--4--4--4-|-4--4--4--4-|-7--7--7--7-|-7--7--7--7-|-6--6--6--6-|-6--6--6--6-|-2--2--2--2-|-9--9--9--9--|
E|------------|------------|------------|------------|------------|------------|------------|-------------| x2

4:18-4:27:

(Guitar 1 & 3)
E chord diagramEE Em chord diagramEmEm
e|-0-0-0-0-|-0-0-0-0-|-0-0-0-0-|-0-0-0-0-|
B|-0-0-0-0-|-0-0-0-0-|-0-0-0-0-|-0-0-0-0-|
G|-1-1-1-1-|-1-1-1-1-|-0-0-0-0-|-0-0-0-0-|
D|-2-2-2-2-|-2-2-2-2-|-5-5-5-5-|-5-5-5-5-|
A|-2-2-2-2-|-2-2-2-2-|-7-7-7-7-|-7-7-7-7-|
E|-0-0-0-0-|-0-0-0-0-|-0-0-0-0-|-0-0-0-0-|

(Guitar 2)
e|-7-7-7-7-|-7-7-7-7-|-7-7-7-7-|-7-7-7-7-|
B|---------|---------|---------|---------|
G|---------|---------|---------|---------|
D|-9-9-9-9-|-9-9-9-9-|-9-9-9-9-|-9-9-9-9-|
A|-9-9-9-9-|-9-9-9-9-|-9-9-9-9-|-9-9-9-9-|
E|---------|---------|---------|---------|

4:27-4:41:

(Guitar 1, 2 & 3)
e|-------------|--------------|
B|-------------|--------------|
G|-------------|------7-7-7---|
D|-9-7-9-7-9-7-|-9-7--7-7-7---|
A|-9-7-9-7-9-7-|-9-7--5-5-5---|
E|-7-5-7-5-7-5-|-7-5----------| x4

4:41-5:54: (There is a higher pitch change with Guitar 2/3 here but to keep things simple I left it out,
transpose +2 for the middle 8 repeats to include it)

(Guitar 1 & 2)
e|-------------|--------------|
B|-------------|--------------|
G|-------------|------7-7-7---|
D|-9-7-9-7-9-7-|-9-7--7-7-7---|
A|-9-7-9-7-9-7-|-9-7--5-5-5---|
E|-7-5-7-5-7-5-|-7-5----------| x16

(Guitar 3)
e|-------------|--------------|
B|-------------|--------------|
G|-------------|--------------|
D|-------------|--------------|
A|-------------|-----b2-b2-b2-|
E|-7-5-7-5-7-5-|-7-5----------| x16

5:54-7:06:
(Guitar 1)
e|-------------|-------------|-0-----0---|--------|
B|-------------|-------------|---0-------|--------|
G|-----7-9-10-9|-7---------7-|-----0-----|--------|
D|-------------|-----7--5----|-----------|-----2--|
A|---3---------|---5---------|-----------|-4-2----|
E|-2-----------|-------------|---------2-|--------| x12

7:06-7:24:

(Guitar 1)
e|-------------|-------------|-------------|-------------|
B|-------------|-------------|-------------|-------------|
G|-7--9-10-9-7-|-------------|-7--9-10-9-7-|-------------|
D|-------------|-7--9-10-9-7-|-------------|-7--9-10-9-7-|
A|-------------|-------------|-------------|-------------|
E|-------------|-------------|-------------|-------------| x4

(Guitar 2)
Dm chord diagramDmDm/F chord diagramFF Bm chord diagramBmBm Dm chord diagramDmDm/F chord diagramFF Bm chord diagramBmBm
e|-1-----------|-2-----------|-1-----------|-2-----------|
B|-3-----------|-3-----------|-3-----------|-3-----------|
G|-2-----------|-4-----------|-2-----------|-4-----------|
D|-3-----------|-4-----------|-3-----------|-4-----------|
A|-------------|-------------|-------------|-------------|2
E|-------------|-------------|-------------|-------------| x1

7:24-7:41:
(Guitar 1)
e|-------------|-------------|-0-----0---|--------|
B|-------------|-------------|---0-------|--------|
G|-----7-9-10-9|-7---------7-|-----0-----|--------|
D|-------------|-----7--5----|-----------|-----2--|
A|---3---------|---5---------|-----------|-4-2----|
E|-2-----------|-------------|---------2-|--------| x4

7:24-7:56:
(Guitar 1)
e|-------------|-------------|-------------|-------------|
B|-------------|-------------|-------------|-------------|
G|-7--9-10-9-7-|-------------|-7--9-10-9-7-|-------------|
D|-------------|-7--9-10-9-7-|-------------|-7--9-10-9-7-|
A|-------------|-------------|-------------|-------------|
E|-------------|-------------|-------------|-------------| x4

(Guitar 2)
Dm chord diagramDmDm/F chord diagramFF Bm chord diagramBmBm Dm chord diagramDmDm/F chord diagramFF Bm chord diagramBmBm
e|-1-----------|-2-----------|-1-----------|-2-----------|
B|-3-----------|-3-----------|-3-----------|-3-----------|
G|-2-----------|-4-----------|-2-----------|-4-----------|
D|-3-----------|-4-----------|-3-----------|-4-----------|
A|-------------|-------------|-------------|-------------|
E|-------------|-------------|-------------|-------------| x2
Reply With Quote
  #4  
Old August 19th 2018, 06:44 PM
mkmerkle mkmerkle is offline
Visiting is pretty...
 
Join Date: Aug 2018
Posts: 6
Default Re: Play by Dave Grohl - guitar tabs

7:56-8:00:

(Guitar 1)
Bdim chord diagramBdimBdim/F chord diagramFF
e|-----------|-----------|
B|-6-6-6-6-6-|-6-6-6-6-6-|
G|-7-7-7-7-7-|-7-7-7-7-7-|
D|-9-9-9-9-9-|-9-9-9-9-9-|
A|-8-8-8-8-9-|-8-8-8-8-9-|
E|-----------|-----------|

8:00-8:41:

(Guitar 1)
Bdim chord diagramBdimBdim/F chord diagramFF B5 chord diagramB5B5
e|-----------|-----------|-----------|-----------|
B|-6-6-6-6-6-|-6-6-6-6-6-|-----------|-----------|
G|-7-7-7-7-7-|-7-7-7-7-7-|-----------|-----------|
D|-9-9-9-9-9-|-9-9-9-9-9-|-9-9-9-9-9-|-9-9-9-9-9-|
A|-8-8-8-8-9-|-8-8-8-8-9-|-9-9-9-9-9-|-9-9-9-9-9-|
E|-----------|-----------|-7-7-7-7-7-|-7-7-7-7-7-| x4

(Guitar 2)
e|----------|--------|----------|--------|----------|--------|
B|----------|--------|----------|--------|----------|--------|
G|-7-7--7-9-|-7-9-b9-|-7-7--7-9-|-7-9-b9-|----------|--------|
D|----------|--------|----------|--------|-7-7--7-9-|-7-9-b9-|
A|----------|--------|----------|--------|----------|--------|
E|----------|--------|----------|--------|----------|--------| x4

(Guitar 3)
e|-10-10-10-10-|-10-10-10-10-|-12-12-12-12-|-12-12-12-12-|
B|-10-10-10-10-|-10-10-10-10-|-12-12-12-12-|-12-12-12-12-|
G|-11-11-11-11-|-11-11-11-11-|-13-13-13-13-|-13-13-13-13-|
D|-12-12-12-12-|-12-12-12-12-|-14-14-14-14-|-14-14-14-14-|
A|-12-12-12-12-|-12-12-12-12-|-14-14-14-14-|-14-14-14-14-|
E|-10-10-10-10-|-10-10-10-10-|-12-12-12-12-|-12-12-12-12-| x4

8:41-8:56:

(Guitar 1)
Bdim chord diagramBdimBdim/F chord diagramFF B5 chord diagramB5B5 Bdim chord diagramBdimBdim/F chord diagramFF G chord diagramGG
e|-----------|-----------|-----------|-----------|-----------|-----------|-3-3-3-3-|-3-3-3-3-|
B|-6-6-6-6-6-|-6-6-6-6-6-|-----------|-----------|-6-6-6-6-6-|-6-6-6-6-6-|-3-3-3-3-|-3-3-3-3-|
G|-7-7-7-7-7-|-7-7-7-7-7-|-----------|-----------|-7-7-7-7-7-|-7-7-7-7-7-|-0-0-0-0-|-0-0-0-0-|
D|-9-9-9-9-9-|-9-9-9-9-9-|-9-9-9-9-9-|-9-9-9-9-9-|-9-9-9-9-9-|-9-9-9-9-9-|-0-0-0-0-|-0-0-0-0-|
A|-8-8-8-8-9-|-8-8-8-8-9-|-9-9-9-9-9-|-9-9-9-9-9-|-8-8-8-8-9-|-8-8-8-8-9-|-2-2-2-2-|-2-2-2-2-|
E|-----------|-----------|-7-7-7-7-7-|-7-7-7-7-7-|-----------|-----------|-3-3-3-3-|-3-3-3-3-|

(Guitar 2 & 3)

e|-------------|-------------|-------------|-------------|--------------------|
B|-6-6-6-6-6-6-|-6-6-6-6-6-6-|-6-6-6-6-----|-------------|--------------------|
G|-7-7-7-7-7-7-|-7-7-7-7-7-7-|-7-7-7-7-----|-------------|--------------------|
D|-9-9-9-9-9-9-|-9-9-9-9-9-9-|-9-9-9-9-9-9-|-9-9-9-9-9-9-|-9-9---b9-b9-b9-b9--|
A|-8-8-8-8-8-8-|-8-8-8-8-8-8-|-8-8-8-8-9-9-|-9-9-9-9-9-9-|-9-9---b7-b7-b7-b7--|
E|-------------|-------------|---------7-7-|-7-7-7-7-7-7-|-7-7----------------| x2

8:56-9:22:

(Guitar 1)
Bdim chord diagramBdimBdim/F chord diagramFF B5 chord diagramB5B5
e|-----------|-----------|-----------|-----------|
B|-6-6-6-6-6-|-6-6-6-6-6-|-----------|-----------|
G|-7-7-7-7-7-|-7-7-7-7-7-|-----------|-----------|
D|-9-9-9-9-9-|-9-9-9-9-9-|-9-9-9-9-9-|-9-9-9-9-9-|
A|-8-8-8-8-9-|-8-8-8-8-9-|-9-9-9-9-9-|-9-9-9-9-9-|
E|-----------|-----------|-7-7-7-7-7-|-7-7-7-7-7-| x4

(Guitar 2)
e|----------|--------|----------|--------|----------|--------|
B|----------|--------|----------|--------|----------|--------|
G|-7-7--7-9-|-7-9-b9-|-7-7--7-9-|-7-9-b9-|----------|--------|
D|----------|--------|----------|--------|-7-7--7-9-|-7-9-b9-|
A|----------|--------|----------|--------|----------|--------|
E|----------|--------|----------|--------|----------|--------| x4

(Guitar 3)
D chord diagramDD E chord diagramEE
e|-10-10-10-10-|-10-10-10-10-|-12-12-12-12-|-12-12-12-12-|
B|-10-10-10-10-|-10-10-10-10-|-12-12-12-12-|-12-12-12-12-|
G|-11-11-11-11-|-11-11-11-11-|-13-13-13-13-|-13-13-13-13-|
D|-12-12-12-12-|-12-12-12-12-|-14-14-14-14-|-14-14-14-14-|
A|-12-12-12-12-|-12-12-12-12-|-14-14-14-14-|-14-14-14-14-|
E|-10-10-10-10-|-10-10-10-10-|-12-12-12-12-|-12-12-12-12-| x4

9:22-9:36:

(Guitar 1)
Bdim chord diagramBdimBdim/F chord diagramFF B5 chord diagramB5B5
e|-----------|-----------|-----------|-----------|
B|-6-6-6-6-6-|-6-6-6-6-6-|-----------|-----------|
G|-7-7-7-7-7-|-7-7-7-7-7-|-----------|-----------|
D|-9-9-9-9-9-|-9-9-9-9-9-|-9-9-9-9-9-|-9-9-9-9-9-|
A|-8-8-8-8-9-|-8-8-8-8-9-|-9-9-9-9-9-|-9-9-9-9-9-|
E|-----------|-----------|-7-7-7-7-7-|-7-7-7-7-7-| x2

(Guitar 2)
e|----------------|---------------|-----------------|-------------------|
B|----------------|---------------|-----------------|-------------------|
G|------11------11|-----11------11|------12-------12|------12-------12--|
D|---10------10---|--10------10---|---11-------11---|---11-------11-----|
A|-9-------9------|9-------9------|10-------10------|10-------10--------|
E|----------------|---------------|-----------------|-------------------| x2

(Guitar 3)
D chord diagramDD E chord diagramEE
e|-10-10-10-10-|-10-10-10-10-|-12-12-12-12-|-12-12-12-12-|
B|-10-10-10-10-|-10-10-10-10-|-12-12-12-12-|-12-12-12-12-|
G|-11-11-11-11-|-11-11-11-11-|-13-13-13-13-|-13-13-13-13-|
D|-12-12-12-12-|-12-12-12-12-|-14-14-14-14-|-14-14-14-14-|
A|-12-12-12-12-|-12-12-12-12-|-14-14-14-14-|-14-14-14-14-|
E|-10-10-10-10-|-10-10-10-10-|-12-12-12-12-|-12-12-12-12-| x2

9:36-9:38:

(Guitar 1)
Bdim chord diagramBdimBdim/F chord diagramFF B5 chord diagramB5B5
e|-----------|-----------|-----------|-----------|
B|-6-6-6-6-6-|-6-6-6-6-6-|-----------|-----------|
G|-7-7-7-7-7-|-7-7-7-7-7-|-----------|-----------|
D|-9-9-9-9-9-|-9-9-9-9-9-|-9-9-9-9-9-|-9-9-9-9-9-|
A|-8-8-8-8-9-|-8-8-8-8-9-|-9-9-9-9-9-|-9-9-9-9-9-|
E|-----------|-----------|-7-7-7-7-7-|-7-7-7-7-7-|

(Guitar 2)
Dmaj7 chord diagramDmaj7Dmaj7 A chord diagramAA/C# chord diagramC#C# B chord diagramBB/D# chord diagramD#D# B chord diagramBB
e|-2-2-2-2-|-0-0-0-0-|-0-0-0-0-|-7-7-b7-b7-|
B|-2-2-2-2-|-2-2-2-2-|-3-3-3-3-|-7-7-b7-b7-|
G|-2-2-2-2-|-2-2-2-2-|-3-3-3-3-|-8-8-b8-b8-|
D|-0-0-0-0-|-2-2-2-2-|-3-3-3-3-|-9-9-b9-b9-|
A|---------|-4-4-4-4-|-5-5-5-5-|-9-9-b9-b9-|
E|---------|---------|---------|-7-7-b7-b7-|

(Guitar 3)
D chord diagramDD E chord diagramEE
e|-10-10-10-10-|-10-10-10-10-|-12-12-12-12-|-12-12-12-12-|
B|-10-10-10-10-|-10-10-10-10-|-12-12-12-12-|-12-12-12-12-|
G|-11-11-11-11-|-11-11-11-11-|-13-13-13-13-|-13-13-13-13-|
D|-12-12-12-12-|-12-12-12-12-|-14-14-14-14-|-14-14-14-14-|
A|-12-12-12-12-|-12-12-12-12-|-14-14-14-14-|-14-14-14-14-|
E|-10-10-10-10-|-10-10-10-10-|-12-12-12-12-|-12-12-12-12-|

9:38-10:01:

(Guitar 1 & 2)
F5 chord diagramF5F5 A5 chord diagramA5A5 B5 chord diagramB5B5 A5 chord diagramA5A5
e|---------|-----------|---------|-----------|
B|---------|-----------|---------|-----------|
G|---------|-----------|---------|-----------|
D|-3-3-3-3-|-3-3-3-3-7-|-9-9-9-9-|-9-9-9-9-7-|
A|-3-3-3-3-|-3-3-3-3-7-|-9-9-9-9-|-9-9-9-9-7-|
E|-1-1-1-1-|-1-1-1-1-5-|-7-7-7-7-|-7-7-7-7-5-| x4
Reply With Quote
  #5  
Old August 19th 2018, 06:45 PM
mkmerkle mkmerkle is offline
Visiting is pretty...
 
Join Date: Aug 2018
Posts: 6
Default Re: Play by Dave Grohl - guitar tabs

10:01-10:20:

(Guitar 1)
B5 chord diagramB5B5
e|---------|---------|
B|---------|---------|
G|---------|---------|
D|-9-9-9-9-|-9-9-9-9-|
A|-7-7-7-7-|-7-7-7-7-|
E|-7-7-7-7-|-7-7-7-7-| x4

(Guitar 2 & 3)
F5 chord diagramF5F5
e|-------------|-------------|
B|-------------|-------------|
G|-10-10-10-10-|-10-10-10-10-|
D|-10-10-10-10-|-10-10-10-10-|
A|-8--8--8--8--|-8--8--8--8--|
E|-------------|-------------| x4

10:20-10:54:

(Guitar 1)
e|-------------------------------------------------------------------------------|
B|-------------------------------------------------------------------------------|
G|-18\---------------------------------------------------------------------------|
D|-17\--------Ad-lib-sliding-and-strumming---------------------------------------|
A|-16\---------------------------------------------------------------------------|
E|-------------------------------------------------------------------------------|

(Guitar 2 & 3)
e|-------------------------------------------------------------------------------|
B|-------------------------------------------------------------------------------|
G|-13\---------------------------------------------------------------------------|
D|-12\--------Ad-lib-sliding-and-strumming,-should-always-be-lower-than-Guitar-1-|
A|-11\---------------------------------------------------------------------------|
E|-------------------------------------------------------------------------------|

10:54-11:12:

(Guitar 1 & 2 (Same chords, different variations))- Basic chords provided with ad lib plucking; 1 chord lasts
2 bars unless shown (*)
Bm7 chord diagramBm7Bm7 C#m7 chord diagramC#m7C#m7 Em chord diagramEmEm/B chord diagramBB A chord diagramAA* D chord diagramDD* Cm7 chord diagramCm7Cm7* A chord diagramAA
e|----------7----5----5---------5--|
B|----------8----5----7---------5--|
G|----------9----6----7---------6--|
D|8----10---9----7----7----9----7--|
A|6----8----7----7----5----7----7--|
E|7----9----7----5----5----8----5--|

11:12-12:07:

(Guitar 1 & 2 (Same chords, different variations))- Basic chords provided with ad lib plucking; 1 chord lasts
2 bars unless shown (*)
Bm7 chord diagramBm7Bm7 C#m7 chord diagramC#m7C#m7 Em chord diagramEmEm/B chord diagramBB A chord diagramAA* D chord diagramDD* Cm7 chord diagramCm7Cm7* Am chord diagramAmAm
e|----------7----5----5---------5--|
B|----------8----5----7---------5--|
G|----------9----6----7---------5--|
D|8----10---9----7----7----9----7--|
A|6----8----7----7----5----7----7--|
E|7----9----7----5----5----8----5--| x4

(Guitar 3)
e|---|-------------|--------|-----------|-------|---------|----|----|----|-------|
B|---|-------------|--------|-----------|-------|---------|----|----|----|-------|
G|---|-------------|--------|-----------|-------|---------|----|----|----|-------|
D|---|-------------|--------|-----------|-------|---------|----|----|----|-------|
A|-5~|9-7-5/7------|--------|----0---0-2|2p0----|2-2/5--6~|-7~-|-8~-|-9~-|-9\0---|
E|---|--------7-7/9|7-5h7-2-|0h2--h2----|---2p0-|---------|----|----|----|-------| x4

12:07-12:20:

(Guitar 1 & 2 (Same chords, different variations))- Basic chords provided with ad lib plucking; 1 chord lasts
2 bars unless shown (*)
Bm7 chord diagramBm7Bm7 C#m7 chord diagramC#m7C#m7 Em chord diagramEmEm/B chord diagramBB A chord diagramAA* D chord diagramDD* Cm7 chord diagramCm7Cm7* Am chord diagramAmAm
e|----------7----5----5---------5--|
B|----------8----5----7---------5--|
G|----------9----6----7---------5--|
D|8----10---9----7----7----9----7--|
A|6----8----7----7----5----7----7--|
E|7----9----7----5----5----8----5--| x2

(Guitar 3)
e|-------|-----------|
B|-------|-----------|
G|-------|-----------|
D|-------|-----------|
A|-------|--5---5--7-|
E|-5-7-7-|7---7------| x4

12:20-13:04:

(Guitar 1)
F#m7 chord diagramF#m7F#m7 F chord diagramFF+ E chord diagramEE B chord diagramBB Dmaj7 chord diagramDmaj7Dmaj7 F#m7 chord diagramF#m7F#m7
e|-2---------0----7--2-----2---|
B|-2----2----0----7--2-----2---|
G|-2----2----1----8--2-----2---|
D|-4----3----2----9--0-----4---|
A|-4----0----2----9--------4---|
E|-2----1----0----7--------2---| x4

(Guitar 2)
e|-----|--5-|3--3/|6\2|-2-|-1-|-0-|
B|-----|--5-|3--3/|6\2|-2-|-1-|-0-|
G|-----|--6-|4--4/|7\2|-2-|-2-|-1-|
D|-----|--7-|5--5/|7\4|-4-|-3-|-2-|
A|-----|--7-|5--5/|8\4|-4-|-3-|-2-|
E|-2~1~|0-5-|3--3/|6\2|-2-|-1-|-0-| x4

(Guitar 3)
e|-------|-----------|
B|-------|-----------|
G|-------|-----------|
D|-------|-----------|
A|-------|--5---5--7-|
E|-5-7-7-|7---7------| x4

13:04-13:42:

(Guitar 1 & 2)
F#m7 chord diagramF#m7F#m7 F chord diagramFF+ E chord diagramEE B chord diagramBB Dmaj7 chord diagramDmaj7Dmaj7 F#m7 chord diagramF#m7F#m7
e|-2---------0----7--2-----2---|
B|-2----2----0----7--2-----2---|
G|-2----2----1----8--2-----2---|
D|-4----3----2----9--0-----4---|
A|-4----0----2----9--------4---|
E|-2----1----0----7--------2---| x2

(Guitar 3)
e|-------|-----------|
B|-------|-----------|
G|-------|-----------|
D|-------|-----------|
A|-------|--5---5--7-|
E|-5-7-7-|7---7------| x2

13:42-14:52:

(Guitar 1)
e|-----------|---------2-|
B|-----------|---------2-|
G|---------3-|-----------|
D|-------4---|-------4---|
A|-----4-----|-----4-----|
E|-0h2-------|-0h2-------| x8

(Guitar 2)
e|---------|---------|
B|---------|---------|
G|---------|---------|
D|-----4-4-|-----4-4-|
A|-----4-4-|-----4-4-|
E|-0h2-2-2-|-0h2-2-2-| x8

(Guitar 3)-With slight variation at times
e|---------|---------|
B|---------|---------|
G|---------|---------|
D|---------|---------|
A|-7-h9~---|-7-h9~---|
E|---------|---------| x8
Reply With Quote
  #6  
Old August 19th 2018, 06:45 PM
mkmerkle mkmerkle is offline
Visiting is pretty...
 
Join Date: Aug 2018
Posts: 6
Default Re: Play by Dave Grohl - guitar tabs

14:52-15:42:
All parts here are randomly played and ad lib. Time signatures are irrelevant so left out!

(Guitar 1)
e|-----------------|
B|-----------------|
G|-----------------|
D|-----------------|
A|-----------------|
E|-0-0-0-0-0-0-0-0-| Repeat over and over

(Guitar 2)
e|-----------------|
B|-----------------|
G|-12-12-12-12-----|
D|-12-12-12-12-----|
A|-10-10-10-10-----|
E|-----------------| Repeat over and over

(Guitar 3)
e|-----------------|
B|-----------------|
G|-----------------|
D|-----------------|
A|-b5~-b10~-b9~----|
E|-----------------| Repeat over and over

15:42-16:12:
|
(Guitar 1 & 2) v-Guitar 3 joins here for these four notes
e|----------|---------|--------|--------|
B|----------|---------|--------|--------|
G|-9-9-9-9\7|/9-9-9-9/|10\9----|--------|
D|-9-9-9-9/7|/9-9-9-9/|10\9----|--------|
A|-7-7-7-7\5|/7-7-7-7/|8-\7----|---9-11-|
E|----------|---------|------0/|7-------| x3

(Guitar 1, 2 & 3)
Cm chord diagramCmCm Aaug
e|-3-3-3-3-3-3-3-3-|-1-1-1-1-1-1-1-1-|--------|--------|
B|-4-4-4-4-4-4-4-4-|-2-2-2-2-2-2-2-2-|--------|--------|
G|-5-5-5-5-5-5-5-5-|-2-2-2-2-2-2-2-2-|--------|--------|
D|-5-5-5-5-5-5-5-5-|-3-3-3-3-3-3-3-3-|--------|--------|
A|-3-3-3-3-3-3-3-3-|-0-0-0-0-0-0-0-0-|--------|---9-11-|
E|-----------------|-----------------|------0/|7-------|

Repeat this whole progression x2

16:12-16:28:
|
(Guitar 1 & 2) v-Guitar 3 joins here for these five notes
e|----------|---------|--------|-----------|
B|----------|---------|--------|-----------|
G|-9-9-9-9\7|/9-9-9-9/|10\9----|-----------|
D|-9-9-9-9/7|/9-9-9-9/|10\9----|-----------|
A|-7-7-7-7\5|/7-7-7-7/|8-\7----|-----b9----|
E|----------|---------|------0/|9-b9----b9-| x3

(Guitar 1, 2 & 3)
Cm chord diagramCmCm Aaug
e|-3-3-3-3-3-3-3-3-|-1-1-1-1-1-1-1-1-|--------|-------|
B|-4-4-4-4-4-4-4-4-|-2-2-2-2-2-2-2-2-|--------|-------|
G|-5-5-5-5-5-5-5-5-|-2-2-2-2-2-2-2-2-|--------|-------|
D|-5-5-5-5-5-5-5-5-|-3-3-3-3-3-3-3-3-|--------|-------|
A|-3-3-3-3-3-3-3-3-|-0-0-0-0-0-0-0-0-|--------|b9-----|
E|-----------------|-----------------|------b9|---b9--|

16:28-16:34:

(Guitar 1, 2 & 3)
C chord diagramCC Em chord diagramEmEm D chord diagramDD Bm chord diagramBmBm A chord diagramAA
e|-0-0-0-0-0-0-|-2-2-2-2-2-2-|-0-0-0-0-0-0-|
B|-1-1-1-0-0-0-|-3-3-3-3-3-3-|-2-2-2-2-2-2-|
G|-0-0-0-0-0-0-|-2-2-2-4-4-4-|-2-2-2-2-2-2-|
D|-2-2-2-2-2-2-|-0-0-0-4-4-4-|-2-2-2-2-2-2-|
A|-3-3-3-2-2-2-|-------------|-0-0-0-0-0-0-|
E|-------0-0-0-|-------------|-------------|

16:34-16:54:
|
(Guitar 1 & 2) v-Guitar 3 joins here for these five notes
e|----------|---------|--------|-----------|
B|----------|---------|--------|-----------|
G|-9-9-9-9\7|/9-9-9-9/|10\9----|-----------|
D|-9-9-9-9/7|/9-9-9-9/|10\9----|-----------|
A|-7-7-7-7\5|/7-7-7-7/|8-\7----|-----b9----|
E|----------|---------|------0/|9-b9----b9-| x3

(Guitar 1, 2 & 3)
C chord diagramCC Em chord diagramEmEm D chord diagramDD Bm chord diagramBmBm A chord diagramAA
e|-0-0-0-0-0-0-|-2-2-2-2-2-2-|-0-0-0-0-0-0-|
B|-1-1-1-0-0-0-|-3-3-3-3-3-3-|-2-2-2-2-2-2-|
G|-0-0-0-0-0-0-|-2-2-2-4-4-4-|-2-2-2-2-2-2-|
D|-2-2-2-2-2-2-|-0-0-0-4-4-4-|-2-2-2-2-2-2-|
A|-3-3-3-2-2-2-|-------------|-0-0-0-0-0-0-|
E|-------0-0-0-|-------------|-------------| x2

16:54-17:08:
|
(Guitar 1 & 2) v-Guitar 3 joins here for these five notes
e|----------|---------|--------|-----------|
B|----------|---------|--------|-----------|
G|-9-9-9-9\7|/9-9-9-9/|10\9----|-----------|
D|-9-9-9-9/7|/9-9-9-9/|10\9----|-----------|
A|-7-7-7-7\5|/7-7-7-7/|8-\7----|-----b9----|
E|----------|---------|------0/|9-b9----b9-| x3

(Guitar 1, 2 & 3)
Cm chord diagramCmCm Aaug
e|-3-3-3-3-3-3-3-3-|-1-1-1-1-1-1-1-1-|--------|-------|
B|-4-4-4-4-4-4-4-4-|-2-2-2-2-2-2-2-2-|--------|-------|
G|-5-5-5-5-5-5-5-5-|-2-2-2-2-2-2-2-2-|--------|-------|
D|-5-5-5-5-5-5-5-5-|-3-3-3-3-3-3-3-3-|--------|-------|
A|-3-3-3-3-3-3-3-3-|-0-0-0-0-0-0-0-0-|--------|b9-----|
E|-----------------|-----------------|------b9|---b9--|

17:08-17:30:

(Guitar 1, 2 & 3)
Cm chord diagramCmCm Aaug F chord diagramFF Cm chord diagramCmCm
e|-3-3-3-3-3-3-3-3-|-1-1-1-1-1-1-1-1-|-1-1-1-1-|-1-|-3-3-3-b3-|-3-3-3-b3-|
B|-4-4-4-4-4-4-4-4-|-2-2-2-2-2-2-2-2-|-1-1-1-1-|-1-|-4-4-4-b4-|-4-4-4-b4-|
G|-5-5-5-5-5-5-5-5-|-2-2-2-2-2-2-2-2-|-2-2-2-2-|-2-|-5-5-5-b5-|-5-5-5-b5-|
D|-5-5-5-5-5-5-5-5-|-3-3-3-3-3-3-3-3-|-3-3-3-3-|-3-|-5-5-5-b5-|-5-5-5-b5-|
A|-3-3-3-3-3-3-3-3-|-0-0-0-0-0-0-0-0-|-3-3-3-3-|-3-|-3-3-3-b3-|-3-3-3-b3-|
E|-----------------|-----------------|-1-1-1-1-|-1-|----------|----------| x2

17:30-17:38:

(Guitar 1, 2 & 3)
e|---------|-----------| |----|
B|---------|-----------| |Drum|
G|---------|-----------| |Fill|
D|-5-7-7-7-|-7-5-7-7-7-| |----|
A|-5-7-7-7-|-7-5-7-7-7-| |----|
E|-3-5-5-5-|-5-3-5-5-5-| x4 |----|

17:38-18:09:
|
(Guitar 1 & 2) v-Guitar 3 joins here for these four notes
e|----------|---------|--------|--------|
B|----------|---------|--------|--------|
G|-9-9-9-9\7|/9-9-9-9/|10\9----|--------|
D|-9-9-9-9/7|/9-9-9-9/|10\9----|--------|
A|-7-7-7-7\5|/7-7-7-7/|8-\7----|---9-11-|
E|----------|---------|------0/|7-------| x3

(Guitar 1, 2 & 3)
C chord diagramCC Em chord diagramEmEm D chord diagramDD Bm chord diagramBmBm A chord diagramAA
e|-0-0-0-0-0-0-|-2-2-2-2-2-2-|-0-0-0-0-0-0-|
B|-1-1-1-0-0-0-|-3-3-3-3-3-3-|-2-2-2-2-2-2-|
G|-0-0-0-0-0-0-|-2-2-2-4-4-4-|-2-2-2-2-2-2-|
D|-2-2-2-2-2-2-|-0-0-0-4-4-4-|-2-2-2-2-2-2-|
A|-3-3-3-2-2-2-|-------------|-0-0-0-0-0-0-|
E|-------0-0-0-|-------------|-------------| x4
Reply With Quote
  #7  
Old August 19th 2018, 06:46 PM
mkmerkle mkmerkle is offline
Visiting is pretty...
 
Join Date: Aug 2018
Posts: 6
Default Re: Play by Dave Grohl - guitar tabs

18:09-18:20:

(Guitar 1, 2 & 3)
F5 chord diagramF5F5
e|----------------|-------------|
B|----------------|-------------|
G|----------------|-10-10-10-10-|
D|----------------|-10-10-10-10-|
A|-----------9-11-|-8--8--8--8--|
E|------0/7-------|-------------| x3 (Only play one F5 chord diagramF5F5 on third repeat)

18:20-18:51:

(Guitar 1, 2 & 3)
e|-----------|----------|-----------|-1-0-1/2-|
B|-----------|----------|-----------|-1-0-1/2-|
G|-7-0-7-9-0-|----------|-5-0-5-7-0-|-2-2-2/3-|
D|-7-0-7-9-0-|-7-0-0-10-|-5-0-5-7-0-|-3-3-3/4-|
A|-5-5-5-7-7-|-7-0-0-10-|-3-3-3-5-5-|-3-3-3/4-|
E|-----------|-5-5-7-8--|-----------|-1-0-1/2-| x4

18:51-19:11:

(Guitar 1, 2 & 3)
E5 chord diagramE5E5 C5 chord diagramC5C5 A5 chord diagramA5A5 F5 chord diagramF5F5 Em chord diagramEmEm D5 chord diagramD5D5
e|---------|-------------|---------|---------| |-------|-------|-------|-------|
B|---------|-------------|---------|---------| |-------|-------|-------|-------|
G|---------|-------------|---------|---------| |-------|-------|-------|-------|
D|-2-2-2-2-|-10-10-10-10-|-7-7-7-7-|-3-3-3-3-| |-5-5-5-|-5-5-5-|-7-7-7-|-7-7-7-|
A|-2-2-2-2-|-10-10-10-10-|-7-7-7-7-|-3-3-3-3-| |-7-7-7-|-7-7-7-|-5-5-5-|-5-5-5-|
E|-0-0-0-0-|-8--8--8--8--|-5-5-5-5-|-1-1-1-1-| x2 |-------|-------|-------|-------|

19:11-19:53:

(Guitar 1, 2 & 3)- With lots of variation and individual picking now
E5 chord diagramE5E5 C5 chord diagramC5C5 A5 chord diagramA5A5 F5 chord diagramF5F5 Em chord diagramEmEm D5 chord diagramD5D5
e|---------|-------------|---------|---------| *|-------|-------|-------|-------|*
B|---------|-------------|---------|---------| *|-------|-------|-------|-------|*
G|---------|-------------|---------|---------| *|-------|-------|-------|-------|*
D|-2-2-2-2-|-10-10-10-10-|-7-7-7-7-|-3-3-3-3-| *|-5-5-5-|-5-5-5-|-7-7-7-|-7-7-7-|*
A|-2-2-2-2-|-10-10-10-10-|-7-7-7-7-|-3-3-3-3-| *|-7-7-7-|-7-7-7-|-5-5-5-|-5-5-5-|*
E|-0-0-0-0-|-8--8--8--8--|-5-5-5-5-|-1-1-1-1-| x2 *|-------|-------|-------|-------|*

Repeat this section x4 - ignore the * part on the fourth repeat

19:53-20:31:

(Guitar 1, 2 & 3)
Em chord diagramEmEm C chord diagramCC A chord diagramAA/C# chord diagramC#C# F5 chord diagramF5F5
e|-------------|-8--8--8--8--8--8--8--|-------------|-------------|
B|-------------|-8--8--8--8--8--8--8--|-------------|-------------|
G|-------------|-9--9--9--9--9--9--9--|-6-6-6-6-6-6-|-------------|
D|-5-5-5-5-5-5-|-10-10-10-10-10-10-10-|-7-7-7-7-7-7-|-3-3-3-3-3-3-|
A|-7-7-7-7-7-7-|-10-10-10-10-10-10-10-|-7-7-7-7-7-7-|-3-3-3-3-3-3-|
E|-------------|-8--8--8--8--8--8--8--|-9-9-9-9-9-9-|-1-1-1-1-1-1-| x4

20:31-20:38:

(Guitar 1, 2 & 3)- Rest while the bass guitar plays the previous notes x1
e|---------|
B|---------|
G|---------|
D|---------|
A|---------|
E|---------|

20:38-20:46:

(Guitar 1)
e|-----------|----------|-----------|-1-0-1/2-|
B|-----------|----------|-----------|-1-0-1/2-|
G|-7-0-7-9-0-|----------|-5-0-5-7-0-|-2-2-2/3-|
D|-7-0-7-9-0-|-7-0-0-10-|-5-0-5-7-0-|-3-3-3/4-|
A|-5-5-5-7-7-|-7-0-0-10-|-3-3-3-5-5-|-3-3-3/4-|
E|-----------|-5-5-7-8--|-----------|-1-0-1/2-|

20:46-21:33:

(Guitar 1, 2 & 3)
e|-----------|----------|-----------|-1-0-1/2-|
B|-----------|----------|-----------|-1-0-1/2-|
G|-7-0-7-9-0-|----------|-5-0-5-7-0-|-2-2-2/3-|
D|-7-0-7-9-0-|-7-0-0-10-|-5-0-5-7-0-|-3-3-3/4-|
A|-5-5-5-7-7-|-7-0-0-10-|-3-3-3-5-5-|-3-3-3/4-|
E|-----------|-5-5-7-8--|-----------|-1-0-1/2-| x8

21:33-21:47:

(Guitar 1, 2 and 3)

e|-0-0-0-0-|-3-3-3-3-|-0-0-0-0-|-1-1-1-1-|
B|-0-0-0-0-|-3-3-3-3-|-0-0-0-0-|-1-1-1-1-|
G|-1-1-1-1-|-4-4-4-4-|-1-1-1-1-|-2-2-2-2-|
D|-2-2-2-2-|-5-5-5-5-|-2-2-2-2-|-3-3-3-3-|
A|-2-2-2-2-|-5-5-5-5-|-2-2-2-2-|-3-3-3-3-|
E|-0-0-0-0-|-3-3-3-3-|-0-0-0-0-|-1-1-1-1-| x2

[21:47-22:20

(Guitar 1)-ad lib sliding and strumming
e|------|
B|------|
G|-0----|
D|-5----|
A|-7----|
E|------|

(Guitar 2 & 3)-ad lib sliding and strumming
e|------|
B|------|
G|------|
D|-12---|
A|-10---|
E|-0----|

22:20-22:29:

(Guitar 1)-ad lib sliding and strumming
e|------|
B|------|
G|-0----|
D|-5----|
A|-7----|
E|------|

(Guitar 2 & 3)-ad lib sliding and strumming
e|---N--|
B|---N--|
G|---N--|
D|-12N--|
A|-10N--|
E|-0-N--|


***********************************
| h Hammer-on
| p Pull-off
| b Bend
| / Slide up
| \ Slide down
| ~ Vibrato
| PM Palm mute
| N Tremolo
************************************
Reply With Quote
Reply


Thread Tools
Display Modes

Posting Rules
You may not post new threads
You may not post replies
You may not post attachments
You may not edit your posts

vB code is On
Smilies are On
[IMG] code is On
HTML code is Off
Forum Jump


All times are GMT. The time now is 06:21 PM.


Powered by vBulletin® Version 3.6.4
Copyright ©2000 - 2018, Jelsoft Enterprises Ltd.